Jump to content


Hình ảnh

Những bài tập đơn giản cho guitar cổ điển!


  • Please log in to reply
75 replies to this topic

#1 Paco De Lucia

Paco De Lucia

    Err, what's up doc!

  • Thành viên
  • PipPipPipPipPip
  • 1150 bài viết
  • Giới tính:Nam
  • Nơi sống:Hỏi Mấy Thằng Nghiện Ấy
  • Sở thích:XXXX

Gửi lúc 22 Oct 2007 - 04:21 PM

Tui (được anh Sơn ủy thác cho) lập topic này để những ai không có điều kiện đi học guitar có thể hiểu biết hơn.

Các nốt cơ bản: (Mô phỏng hình cái đàn)
dây 1........0(mi)--------1(fa)----------------------3(sol)---------------5(la)--
dây 2........0(xi)---------1(do)---------------------3(re)------------------------
dây 3........0(sol)----------------------2(la)--------------------------------------
dây 4........0(re)-----------------------2(mi)-------3(fa)----------------
dây 5........0(la)-----------------------2(xi)--------3(do)------------------------
dây 6........0(mi)-------- 1(fa)---------------------3(sol)-----------------------
(Các nốt tăng dần độ cao từ dây 6 đến dây 1)

Bạn nào thực sự muốn học nghiêm túc phải tự mình ghi hết các nốt này trên khuông nhạc(cho dễ thuộc, ghi càng nhiều càng tốt) VD: nốt mi mà tôi in đậm ở trên nằm đè lên dòng kẻ đầu tiên từ dưới lên ( Khuông nhạc có năm dòng kẻ, các nốt chạy dần theo thứ tự (..mi..fa..sol..la..xi..do..re..), mỗi sự tăng lên cao độ ứng với nửa dòng kẻ, nốt nào chạy ra ngoài dòng kẻ thì vẽ thêm dòng kẻ giả như hình dưới đây)
Posted Image

Ngồi đúng thế:
Posted Image
Ngồi y như ông này từ cách để tay (góc nghiêng của tay). Ngón cái của tay trái để sau và ngay chính giữa chiều ngang cần đàn(Nếu có thể thì kiếm cái ghế ngồi cao khoảng 50cm, ghế kê chân cao khoảng 15-20cm, không thi ngồi 1 ghế cũng được nhưng kiếm cái ghế nào thấp thấp thôi)

Tập luyện ngón: (Các bạn vừa cầm đàn vừa đọc hướng dẫn và làm theo)
*Chưa cần quan tâm đến các nốt:
(Dây 1): (1)ngón 1 bấm vào quãng 1 (gẩy 1 phát), ngón 2 bấm vào dây 2 (gẩy 1 phát nữa), Cứ thế đến ngón 4 vào quãng 4 (sẽ thu được các nốt có độ cao tăng dần, nghe hơi chuối nhưng có ích cho tay mình, mà tập không dễ đâu). (2) coi như bỏ qua quãng 1 làm như trên bắt đầu từ quãng 2(ngón 1 vào quãng 2, 2 vào 3, .v.v...). (3) (Tương tự). (4) quay ngược quá trình (tức là lùi độ cao các nốt bắt đầu từ nốt bạn vừa đánh (quãng 6) rồi lại quay lại từ đầu). Nhớ là đánh với tốc độ không cần nhanh nhưng tất cả các nốt luôn đều nhau).
Làm tương tự với các dây còn lại (nếu bạn muốn tay mình vững hơn)

Tạm thời thế đã tí nữa tui post tiếp (đi có việc).

Bài viết này được chỉnh sửa bởi Paco De Lucia: 23 Oct 2007 - 04:43 PM

  • 1

#2 Paco De Lucia

Paco De Lucia

    Err, what's up doc!

  • Thành viên
  • PipPipPipPipPip
  • 1150 bài viết
  • Giới tính:Nam
  • Nơi sống:Hỏi Mấy Thằng Nghiện Ấy
  • Sở thích:XXXX

Gửi lúc 22 Oct 2007 - 05:03 PM

Sau khi đã luyện phần trên được ít nhất 15 phút, các bạn sẽ chuyển sang đánh các nốt theo thứ tự tăng dần độ cao từ nốt mi(dây 6 buông,tức là không bấm gì) đến nốt la(quãng 5 dây 1) rồi lại đánh ngược lại như ở phần trên. Cách đánh là các bạn nhìn vào phần mô phỏng đàn ở trên cùng và dùng các ngón bấm vào(mỗi nốt gẩy 1 phát): Số 1 để chỉ ngón 1 (ngón trỏ). Số 2 chỉ ngón 2 (ngón giữa). Số 3 chỉ ngón 3 (ngón đeo nhẫn). Số 4 chỉ ngón 4 (ngón út). Nếu bạn vừa đọc vừa nhẩm theo nốt thì chẳng mấy chốc mà nhớ hết :lol: .(phần này luyện khá lâu, vì rất khó để nhớ hết các thế bấm)

Bài viết này được chỉnh sửa bởi Paco De Lucia: 22 Oct 2007 - 05:08 PM

  • 0

#3 Paco De Lucia

Paco De Lucia

    Err, what's up doc!

  • Thành viên
  • PipPipPipPipPip
  • 1150 bài viết
  • Giới tính:Nam
  • Nơi sống:Hỏi Mấy Thằng Nghiện Ấy
  • Sở thích:XXXX

Gửi lúc 22 Oct 2007 - 06:07 PM

Sau khi đã luyện thành thục bài trên(đánh đều và trôi chảy). Các bạn sẽ bắt đầu đánh bài có tiết tấu cụ thể. Vì không thể post Sheet (bản nhạc) lên được nên tui sẽ chỉ viết Tab (minh họa cho bản nhạc) P1:(tab) Quy ước ở phần tab này, số tượng trưng cho quãng và mỗi dòng (--------) tượng trưng cho dây. Khoảng cách giữa 2 nốt tượng trưng cho trá trị của 1 nốt (độ dài mỗi nốt).
3 bài tôi chuẩn bị post có giá trị các nốt bằng nhau:
Bài 1: Tui chỉ ghi chú thích bài này thôi nhé. Các phần trong bài 1 có 2 vế giống nhau. p,i,m,a theo thứ tự tượng trưng cho các ngón tay từ ngón cái đến ngón đeo nhẫn của bàn tay trái.
(p1)
1-----------------0------------0-------------0------------0-----m
2-------------1-----------1-------------1-------------1---------i
3---------------------0---------------------------0--------------p
4-----------------------------------------------------------------
5---------3-------------------------3----------------------------p
6-----------------------------------------------------------------
Chú thích: Ngón 3 bấm vào quãng 3 dây 5, ngón 1 bấm vào quãng 1 dây 1.
(p2)
1------------------1-----------1-----------1-------------1------m
2-------------0------------0-----------0------------0-----------i
3----------------------0------------------------0----------------p
4---------0------------------------0-----------------------------p
5-----------------------------------------------------------------
6-----------------------------------------------------------------
Chú thích: Thả 2 ngón kia ra, ngón 1 bấm vào quãng 1 dây 1.
(p3)
1-------------------1------------1------------1------------1-----m
2--------------0------------0------------0-------------0---------i
3-----------------------0--------------------------0--------------p
4------------------------------------------------------------------
5------------------------------------------------------------------
6---------3--------------------------3----------------------------p
Chú thích: Giữ nguyên ngón 1 như trên rồi bấm thêm ngón 3 vào dây 6.
(p4)
Giống (p1)
(p5)
1------------------0------------0-----------0-------------0-------m
2--------------1-----------1------------1------------1------------i
3----------------------2-------------------------2-----------------p
4-------------------------------------------------------------------
5---------0-------------------------0------------------------------p
6-------------------------------------------------------------------
Chú thích: Giữ nguyên ngón 1 bỏ ngón 3 ra bấm ngón 2 vào quãng 2 dây 3.
(p6)
1-----------------1-----------1-----------1----------1------------m
2-------------3-----------3-----------3----------3----------------i
3---------------------2-----------------------2--------------------p
4---------0-----------------------0--------------------------------p
5-------------------------------------------------------------------
6-------------------------------------------------------------------
Chú thích: Bỏ hết các ngón ra, bấm ngón 1 vào quãng 1 dây 1, ngón 3 vào quãng 3 dây 2 và ngón 2 vào quãng 2 dây 3.
(p7)
1-----------------0-----------0-----------1----------1------------m
2-------------1-----------1-----------0----------0----------------i
3---------------------0-----------------------0--------------------p
4-------------------------------------------------------------------
5-------------------------------------------------------------------
6---------6-----------------------6--------------------------------p
Chú thích: (p7) 2 vế khác nhau:
Vế 1 bấm ngón 3 quãng 3 dây 6, ngón 1 quãng 1 dây 2.
Vế 2 giữ nguyên ngón 3, ngón 1 chuyển từ quãng 1 dây 2 sang quãng 1 dây 1.
(kết thúc)
Giống phần 1 nhưng chỉ đánh 1 nửa (1 vế), kết thúc bằng nốt do(quãng 3 dây 5) và phần này bạn lưu ý là đánh với tốc độ chậm dần đều (tưởng tượng như bạn đi xe về gần đến nhà mình, bạn đi chậm lại và dừng hẳn :lol: )
End.

Bài viết này được chỉnh sửa bởi Paco De Lucia: 23 Oct 2007 - 05:38 PM

  • 0

#4 Paco De Lucia

Paco De Lucia

    Err, what's up doc!

  • Thành viên
  • PipPipPipPipPip
  • 1150 bài viết
  • Giới tính:Nam
  • Nơi sống:Hỏi Mấy Thằng Nghiện Ấy
  • Sở thích:XXXX

Gửi lúc 22 Oct 2007 - 06:11 PM

Như tôi đã nói ở đầu. Nếu bạn nào thực sự học nghiêm túc thì nên chép lại bài vừa luyện thành Sheet. Sẽ giúp các bạn nhớ nốt nhạc nhanh :lol: . Ai có nhu cầu học trực tiếp (miễn phí và do tui zậy :"> ) thì liên lạc với tui qua số điện thoại 04.5143060 (không co di động :lol: ) hoặc qua nick chat: the_bounty_hunter_1989@yahoo.com. Ai nghĩ tui không đủ trình zậy và cũng không muốn học ở CLB guitar của trường cộng thêm không biết chỗ học thì liên lạc với tui, tui giới thiệu thầy trong Nhạc Viện cho (học phí 25.000VND/buổi) :D

Bài viết này được chỉnh sửa bởi Paco De Lucia: 22 Oct 2007 - 07:25 PM

  • 0

#5 Paco De Lucia

Paco De Lucia

    Err, what's up doc!

  • Thành viên
  • PipPipPipPipPip
  • 1150 bài viết
  • Giới tính:Nam
  • Nơi sống:Hỏi Mấy Thằng Nghiện Ấy
  • Sở thích:XXXX

Gửi lúc 22 Oct 2007 - 06:27 PM

Dành cho các bạn đã học khá guitar :lol: .Bây giờ, để cho topic đỡ nhàm chán. Tui sẽ ghi tab từ đoạn đọc kinh trong bài Nhà thờ lớn(La Catedral) mà tui đã post ở topic cổ điển. Tui chỉ ghi đoạn này vì có mỗi nó là chuỗi dải hợp âm, còn lại các doạn khác toàn là hợp âm thôi. Nhớ là tốc độ chuẩn của bài này phải nhanh hơn gấp rưỡi bại tôi post.(Ít nhất là 10 nốt /s) nên xem cùng video clip thì dễ học hơn.
Đoạn này các nốt cũng có giá trị bằng nhau. Đoạn nào in đậm là luyến. Những chữ I chắn các nốt nghĩa là đánh với thế khác. Còn các nốt trong cùng 1 vùng nghĩa là đánh cùng 1 thế. p,i,m,a là các ngón của tay phải từ ngón cái đến ngón đeo nhẫn (ngón út không dùng đến).
(1) Không chắn.
1--------------------------------------------------------I---------------------------------------------------~
2--------------------------------------------------------I--------------3(2a)-------------------------------I
3-------------------------------------------0(m)-------I--4(4i)-----------------------4(4i)----------------I
4--------------4(3i)-3(2m)-->4(3)--------4(3i)--I--------4(3m)---------4(3m)---------4(3m)-------->Quay lại 1 lần.
5-------2(1p)------------------------------------------I-----------------------------------------------------I
6--------------------------------------------------------I---------------------------------------------------~
(2) Chắn quãng 2 đến dây 5, tay phải đánh như trên.
1------------------------------------------------------I-----------------------------------------------------~
2------------------------------------------------------I--------------3(2a)----------------------------------I
3---------------------------------------2(1m)--------I--4(4m)---------------4(4m)------------------------I
4--------------5(4)--4(3)-->5(4)--------5(4i)--I--------4(3i)------4(3i)------4(3i)---------------------->Quay lại 1 lần.
5-------2(1)------------------------------------------I-------------------------------------------------------I
6------------------------------------------------------I------------------------------------------------------~
(3) Làm như (2) nhưng lên 1 cung (Chắn quãng 7, 1 cung = 2 quãng)
(4) Không chắn.
1---------------------------------------------------------------------
2-------------------------------------------7(4a)--------------------
3---------------------------------------------------------------------
4--------------7(3i)--6(2m)-->7(3)--------7(3i)-------------
5-------5(1p)--------------------------------------------------------
6---------------------------------------------------------------------
(5) Giống (4) nhưng lùi cả bàn tay trái đang bấm về 1 cung (2 quãng) và ngón 1 tiến lên 1 quãng (5-->6)
(6) Đoạn này lưu ý ngón 2 nhảy từ fa[3(2m)] sang re[3(2a)]
1----------------------------------------------------------------------
2---------------------------------------------3(2a)-------------------
3----------------------------------------------------------------------
4---------------4(3i)--3(2m)-->4(3)---------4(3i)------------
5-------2(1p)---------------------------------------------------------
6----------------------------------------------------------------------
(7)
1-----------------------------------------------------------------------
2---------------------------------------------2(4a)--------------------
3-----------------------------------------------------------------------
4--------------2(3i)--1(2m)-->2(3)----------2(3i)--------------
5-----------------------------------------------------------------------
6-------0(p)-----------------------------------------------------------
(8)
1-----------------------------------------------------------------------
2----------------------------------------------0(a)--------------------
3-----------------------------------------------------------------------
4---------------3(3i)--2(2m)-->3(3)---------3(3i)--------------
5-----------------------------------------------------------------------
6-------1(1p)----------------------------------------------------------
(9)
1-------------------------------------------------------------------------------------------------------------
2------------------------------------------------------------3(2a)-------------------------------------------
3----------------------0(m)-------0(m)------0(m)---------------------------------------------------------
4---------------4(3i)-------4(3i)-------4(3i)--------4(3i)---------4(3i)-->5(4)--2(1m)--------------
5--------------------------------------------------------------------------------------------4(3p)--2(1p)---
6-------2(1p)------------------------------------------------------------------------------------------------
(10) Quay lại từ đầu đến (7) 1 lần. Hết đoạn 1 (Tốc độ tiêu chuẩn: Mỗi lần 10s, 20s cả 2 lần đánh :lol: )

Bài viết này được chỉnh sửa bởi Paco De Lucia: 23 Oct 2007 - 04:41 PM

  • 0

#6 Paco De Lucia

Paco De Lucia

    Err, what's up doc!

  • Thành viên
  • PipPipPipPipPip
  • 1150 bài viết
  • Giới tính:Nam
  • Nơi sống:Hỏi Mấy Thằng Nghiện Ấy
  • Sở thích:XXXX

Gửi lúc 22 Oct 2007 - 06:45 PM

Mệt quá. Tí post tiếp nhé :lol: . Ai muốn tui viết tiếp thì báo 1 tiếng, Không lại mất công toi.(không dám viết bài mới xuống dưới, sợ bị gọi là spam)

Bài viết này được chỉnh sửa bởi Paco De Lucia: 24 Oct 2007 - 01:17 AM

  • 0

#7 nonggiatu

nonggiatu

    bạn của admin

  • Thành viên
  • PipPipPipPipPip
  • 823 bài viết
  • Giới tính:Nam
  • Nơi sống:K51CD
  • Sở thích:guitar, books

Gửi lúc 02 Nov 2007 - 02:16 AM

Mệt quá. Tí post tiếp nhé :lol: . Ai muốn tui viết tiếp thì báo 1 tiếng, Không lại mất công toi.(không dám viết bài mới xuống dưới, sợ bị gọi là spam)

Hay quá nhỉ, lâu nay bận quá không có thời gian ghé qua CLB, không ngờ năm nay lại xuất hiện cao nhân.
Bài viết của bạn rất hay, nếu có thêm nhiều tab để thực hành thì tốt. Anh em CLB guitar đâu rùi vào ủng hộ đi chứ !
  • 0

#8 hungqh87

hungqh87

    Thành viên cao cấp

  • Thành viên
  • PipPipPipPip
  • 216 bài viết
  • Giới tính:Nam
  • Nơi sống:Hà Nội

Gửi lúc 02 Nov 2007 - 10:00 PM

Cảm ơn bác nha. Em cũng rất thích guitar nhưng chưa có thời gian học. Câu lạc bộ guitar trường mình mạnh ra phết, định tham gia nhưng bận quá. Em định mua 1 cây đàn để tự tập thì nên mua loại nào, khoảng bao nhieu thì hợp lí ạ. Khoảng 300 trở lại được không các bác. Giúp em nhé.
  • 0

#9 menuselect

menuselect

    Dân FOTECH

  • Moderators
  • PipPipPipPipPip
  • 973 bài viết
  • Giới tính:Nam
  • Nơi sống:Mù...Cang...Chải...

Gửi lúc 23 Nov 2007 - 11:25 AM

Okie!Nếu Hưng muốn mua đàn cứ sang clb a tư vấn và có thể mua giúp cho!
  • 0

#10 Paco De Lucia

Paco De Lucia

    Err, what's up doc!

  • Thành viên
  • PipPipPipPipPip
  • 1150 bài viết
  • Giới tính:Nam
  • Nơi sống:Hỏi Mấy Thằng Nghiện Ấy
  • Sở thích:XXXX

Gửi lúc 23 Nov 2007 - 11:38 AM

Ông Sơn hôm qua không đi học đàn mà cũng không báo. Coi thường thầy giáo quá đấy ;-14 ;-14 ;-14
  • 0




0 người đang đọc chủ đề này

0 thành viên, 0 khách, 0 thành viên ẩn